  0
SECTION
  2
HEADER
  9
$ACADVER
  1
AC1015
  9
$ACADMAINTVER
 70
     6
  9
$DWGCODEPAGE
  3
ANSI_1254
  9
$INSBASE
 10
0.0
 20
0.0
 30
0.0
  9
$EXTMIN
 10
0.0
 20
0.0
 30
0.0
  9
$EXTMAX
 10
279.4
 20
215.9
 30
0.0
  9
$LIMMIN
 10
0.0
 20
0.0
  9
$LIMMAX
 10
279.4
 20
215.9
  9
$ORTHOMODE
 70
     0
  9
$REGENMODE
 70
     1
  9
$FILLMODE
 70
     1
  9
$QTEXTMODE
 70
     0
  9
$MIRRTEXT
 70
     1
  9
$LTSCALE
 40
1.0
  9
$ATTMODE
 70
     1
  9
$TEXTSIZE
 40
3.5
  9
$TRACEWID
 40
1.0
  9
$TEXTSTYLE
  7
Standard
  9
$CLAYER
  8
0
  9
$CELTYPE
  6
ByLayer
  9
$CECOLOR
 62
   256
  9
$CELTSCALE
 40
1.0
  9
$DISPSILH
 70
     0
  9
$DIMSCALE
 40
1.0
  9
$DIMASZ
 40
3.5
  9
$DIMEXO
 40
1.0
  9
$DIMDLI
 40
3.75
  9
$DIMRND
 40
0.0
  9
$DIMDLE
 40
0.0
  9
$DIMEXE
 40
1.0
  9
$DIMTP
 40
0.0
  9
$DIMTM
 40
0.0
  9
$DIMTXT
 40
3.5
  9
$DIMCEN
 40
2.5
  9
$DIMTSZ
 40
0.0
  9
$DIMTOL
 70
     0
  9
$DIMLIM
 70
     0
  9
$DIMTIH
 70
     1
  9
$DIMTOH
 70
     1
  9
$DIMSE1
 70
     0
  9
$DIMSE2
 70
     0
  9
$DIMTAD
 70
     1
  9
$DIMZIN
 70
     0
  9
$DIMBLK
  1

  9
$DIMASO
 70
     1
  9
$DIMSHO
 70
     1
  9
$DIMPOST
  1

  9
$DIMAPOST
  1

  9
$DIMALT
 70
     0
  9
$DIMALTD
 70
     3
  9
$DIMALTF
 40
0.0393700787
  9
$DIMLFAC
 40
1.0
  9
$DIMTOFL
 70
     1
  9
$DIMTVP
 40
0.0
  9
$DIMTIX
 70
     0
  9
$DIMSOXD
 70
     0
  9
$DIMSAH
 70
     0
  9
$DIMBLK1
  1

  9
$DIMBLK2
  1

  9
$DIMSTYLE
  2
ISO-25
  9
$DIMCLRD
 70
     0
  9
$DIMCLRE
 70
     0
  9
$DIMCLRT
 70
     0
  9
$DIMTFAC
 40
1.0
  9
$DIMGAP
 40
1.524
  9
$DIMJUST
 70
     0
  9
$DIMSD1
 70
     0
  9
$DIMSD2
 70
     0
  9
$DIMTOLJ
 70
     0
  9
$DIMTZIN
 70
     0
  9
$DIMALTZ
 70
     0
  9
$DIMALTTZ
 70
     0
  9
$DIMUPT
 70
     0
  9
$DIMDEC
 70
     2
  9
$DIMTDEC
 70
     2
  9
$DIMALTU
 70
     2
  9
$DIMALTTD
 70
     3
  9
$DIMTXSTY
  7
Standard
  9
$DIMAUNIT
 70
     0
  9
$DIMADEC
 70
     2
  9
$DIMALTRND
 40
0.0
  9
$DIMAZIN
 70
     0
  9
$DIMDSEP
 70
    44
  9
$DIMATFIT
 70
     3
  9
$DIMFRAC
 70
     0
  9
$DIMLDRBLK
  1

  9
$DIMLUNIT
 70
     2
  9
$DIMLWD
 70
    -2
  9
$DIMLWE
 70
    -2
  9
$DIMTMOVE
 70
     0
  9
$LUNITS
 70
     2
  9
$LUPREC
 70
     2
  9
$SKETCHINC
 40
1.0
  9
$FILLETRAD
 40
10.0
  9
$AUNITS
 70
     0
  9
$AUPREC
 70
     2
  9
$MENU
  1
.
  9
$ELEVATION
 40
0.0
  9
$PELEVATION
 40
0.0
  9
$THICKNESS
 40
0.0
  9
$LIMCHECK
 70
     0
  9
$CHAMFERA
 40
0.0
  9
$CHAMFERB
 40
0.0
  9
$CHAMFERC
 40
0.0
  9
$CHAMFERD
 40
0.0
  9
$SKPOLY
 70
     0
  9
$TDCREATE
 40
2458985.633165891
  9
$TDUCREATE
 40
2458985.508165891
  9
$TDUPDATE
 40
2458985.633166134
  9
$TDUUPDATE
 40
2458985.508166134
  9
$TDINDWG
 40
0.0000000116
  9
$TDUSRTIMER
 40
0.0000000116
  9
$USRTIMER
 70
     1
  9
$ANGBASE
 50
0.0
  9
$ANGDIR
 70
     0
  9
$PDMODE
 70
     0
  9
$PDSIZE
 40
-1.0
  9
$PLINEWID
 40
0.0
  9
$SPLFRAME
 70
     0
  9
$SPLINETYPE
 70
     6
  9
$SPLINESEGS
 70
     8
  9
$HANDSEED
  5
CA
  9
$SURFTAB1
 70
     6
  9
$SURFTAB2
 70
     6
  9
$SURFTYPE
 70
     6
  9
$SURFU
 70
     6
  9
$SURFV
 70
     6
  9
$UCSBASE
  2

  9
$UCSNAME
  2

  9
$UCSORG
 10
0.0
 20
0.0
 30
0.0
  9
$UCSXDIR
 10
1.0
 20
0.0
 30
0.0
  9
$UCSYDIR
 10
0.0
 20
1.0
 30
0.0
  9
$UCSORTHOREF
  2

  9
$UCSORTHOVIEW
 70
     0
  9
$UCSORGTOP
 10
0.0
 20
0.0
 30
0.0
  9
$UCSORGBOTTOM
 10
0.0
 20
0.0
 30
0.0
  9
$UCSORGLEFT
 10
0.0
 20
0.0
 30
0.0
  9
$UCSORGRIGHT
 10
0.0
 20
0.0
 30
0.0
  9
$UCSORGFRONT
 10
0.0
 20
0.0
 30
0.0
  9
$UCSORGBACK
 10
0.0
 20
0.0
 30
0.0
  9
$PUCSBASE
  2

  9
$PUCSNAME
  2

  9
$PUCSORG
 10
0.0
 20
0.0
 30
0.0
  9
$PUCSXDIR
 10
1.0
 20
0.0
 30
0.0
  9
$PUCSYDIR
 10
0.0
 20
1.0
 30
0.0
  9
$PUCSORTHOREF
  2

  9
$PUCSORTHOVIEW
 70
     0
  9
$PUCSORGTOP
 10
0.0
 20
0.0
 30
0.0
  9
$PUCSORGBOTTOM
 10
0.0
 20
0.0
 30
0.0
  9
$PUCSORGLEFT
 10
0.0
 20
0.0
 30
0.0
  9
$PUCSORGRIGHT
 10
0.0
 20
0.0
 30
0.0
  9
$PUCSORGFRONT
 10
0.0
 20
0.0
 30
0.0
  9
$PUCSORGBACK
 10
0.0
 20
0.0
 30
0.0
  9
$USERI1
 70
     0
  9
$USERI2
 70
     0
  9
$USERI3
 70
     0
  9
$USERI4
 70
     0
  9
$USERI5
 70
     0
  9
$USERR1
 40
0.0
  9
$USERR2
 40
0.0
  9
$USERR3
 40
0.0
  9
$USERR4
 40
0.0
  9
$USERR5
 40
0.0
  9
$WORLDVIEW
 70
     1
  9
$SHADEDGE
 70
     3
  9
$SHADEDIF
 70
    70
  9
$TILEMODE
 70
     1
  9
$MAXACTVP
 70
    64
  9
$PINSBASE
 10
0.0
 20
0.0
 30
0.0
  9
$PLIMCHECK
 70
     0
  9
$PEXTMIN
 10
1.0000000000E+20
 20
1.0000000000E+20
 30
1.0000000000E+20
  9
$PEXTMAX
 10
-1.0000000000E+20
 20
-1.0000000000E+20
 30
-1.0000000000E+20
  9
$PLIMMIN
 10
0.0
 20
0.0
  9
$PLIMMAX
 10
420.0
 20
297.0
  9
$UNITMODE
 70
     0
  9
$VISRETAIN
 70
     1
  9
$PLINEGEN
 70
     0
  9
$PSLTSCALE
 70
     1
  9
$TREEDEPTH
 70
  3020
  9
$CMLSTYLE
  2
Standard
  9
$CMLJUST
 70
     0
  9
$CMLSCALE
 40
20.0
  9
$PROXYGRAPHICS
 70
     1
  9
$MEASUREMENT
 70
     1
  9
$CELWEIGHT
370
    -1
  9
$ENDCAPS
280
     0
  9
$JOINSTYLE
280
     0
  9
$LWDISPLAY
290
     1
  9
$INSUNITS
 70
     4
  9
$HYPERLINKBASE
  1

  9
$STYLESHEET
  1

  9
$XEDIT
290
     1
  9
$CEPSNTYPE
380
     0
  9
$PSTYLEMODE
290
     1
  9
$FINGERPRINTGUID
  2
{c0704cb3-475a-4807-bf0a-fe2825b1f1de}
  9
$VERSIONGUID
  2
{FAEB1C32-E019-11D5-929B-00C0DF256EC4}
  9
$EXTNAMES
290
     1
  9
$PSVPSCALE
 40
0.0
  9
$OLESTARTUP
290
     0
  0
ENDSEC
  0
SECTION
  2
CLASSES
  0
CLASS
  1
ACDBDICTIONARYWDFLT
  2
AcDbDictionaryWithDefault
  3
ObjectDBX Classes
 90
        0
280
     0
281
     0
  0
CLASS
  1
VISUALSTYLE
  2
AcDbVisualStyle
  3
ObjectDBX Classes
 90
     4095
280
     0
281
     0
  0
CLASS
  1
MATERIAL
  2
AcDbMaterial
  3
ObjectDBX Classes
 90
     1153
280
     0
281
     0
  0
CLASS
  1
SCALE
  2
AcDbScale
  3
ObjectDBX Classes
 90
     1153
280
     0
281
     0
  0
CLASS
  1
TABLESTYLE
  2
AcDbTableStyle
  3
ObjectDBX Classes
 90
     4095
280
     0
281
     0
  0
CLASS
  1
MLEADERSTYLE
  2
AcDbMLeaderStyle
  3
ACDB_MLEADERSTYLE_CLASS
 90
     4095
280
     0
281
     0
  0
CLASS
  1
SUN
  2
AcDbSun
  3
SCENEOE
 90
     1153
280
     0
281
     0
  0
CLASS
  1
ACDBPLACEHOLDER
  2
AcDbPlaceHolder
  3
ObjectDBX Classes
 90
        0
280
     0
281
     0
  0
CLASS
  1
LAYOUT
  2
AcDbLayout
  3
ObjectDBX Classes
 90
        0
280
     0
281
     0
  0
ENDSEC
  0
SECTION
  2
TABLES
  0
TABLE
  2
VPORT
  5
8
330
0
100
AcDbSymbolTable
 70
     1
  0
VPORT
  5
29
330
8
100
AcDbSymbolTableRecord
100
AcDbViewportTableRecord
  2
*Active
 70
     0
 10
0.0
 20
0.0
 11
1.0
 21
1.0
 12
139.7
 22
107.95
 13
0.0
 23
0.0
 14
10.0
 24
10.0
 15
10.0
 25
10.0
 16
0.0
 26
0.0
 36
1.0
 17
0.0
 27
0.0
 37
0.0
 40
215.9
 41
1.2941176471
 42
50.0
 43
0.0
 44
0.0
 50
0.0
 51
0.0
 71
     0
 72
  2000
 73
     1
 74
     3
 75
     0
 76
     0
 77
     0
 78
     0
281
     0
 65
     1
110
0.0
120
0.0
130
0.0
111
1.0
121
0.0
131
0.0
112
0.0
122
1.0
132
0.0
 79
     0
146
0.0
  0
ENDTAB
  0
TABLE
  2
LTYPE
  5
5
330
0
100
AcDbSymbolTable
 70
     6
  0
LTYPE
  5
14
330
5
100
AcDbSymbolTableRecord
100
AcDbLinetypeTableRecord
  2
ByBlock
 70
     0
  3

 72
    65
 73
     0
 40
0.0
  0
LTYPE
  5
15
330
5
100
AcDbSymbolTableRecord
100
AcDbLinetypeTableRecord
  2
ByLayer
 70
     0
  3

 72
    65
 73
     0
 40
0.0
  0
LTYPE
  5
16
330
5
100
AcDbSymbolTableRecord
100
AcDbLinetypeTableRecord
  2
Continuous
 70
     0
  3
Solid line
 72
    65
 73
     0
 40
0.0
  0
LTYPE
  5
6E
330
5
100
AcDbSymbolTableRecord
100
AcDbLinetypeTableRecord
  2
HIDDEN
 70
     0
  3
Hidden __ __ __ __ __ __ __ __ __ __ __ __ __ __
 72
    65
 73
     2
 40
1.905
 49
1.27
 74
     0
 49
-0.635
 74
     0
  0
LTYPE
  5
6F
330
5
100
AcDbSymbolTableRecord
100
AcDbLinetypeTableRecord
  2
PHANTOM
 70
     0
  3
Phantom ______  __  __  ______  __  __  ______
 72
    65
 73
     6
 40
12.7
 49
6.35
 74
     0
 49
-1.27
 74
     0
 49
1.27
 74
     0
 49
-1.27
 74
     0
 49
1.27
 74
     0
 49
-1.27
 74
     0
  0
LTYPE
  5
70
330
5
100
AcDbSymbolTableRecord
100
AcDbLinetypeTableRecord
  2
CENTER
 70
     0
  3
Center ____ _ ____ _ ____ _ ____ _ ____ _ ____
 72
    65
 73
     4
 40
10.16
 49
6.35
 74
     0
 49
-1.27
 74
     0
 49
1.27
 74
     0
 49
-1.27
 74
     0
  0
LTYPE
  5
71
330
5
100
AcDbSymbolTableRecord
100
AcDbLinetypeTableRecord
  2
CENTERX2
 70
     0
  3
Center (2x) ________  __  ________  __  _____
 72
    65
 73
     4
 40
20.32
 49
12.7
 74
     0
 49
-2.54
 74
     0
 49
2.54
 74
     0
 49
-2.54
 74
     0
  0
LTYPE
  5
72
330
5
100
AcDbSymbolTableRecord
100
AcDbLinetypeTableRecord
  2
DOT2
 70
     0
  3
Dot (.5x) ........................................
 72
    65
 73
     2
 40
0.635
 49
0.0
 74
     0
 49
-0.635
 74
     0
  0
ENDTAB
  0
TABLE
  2
LAYER
  5
2
330
0
100
AcDbSymbolTable
 70
    17
  0
LAYER
  5
10
330
2
100
AcDbSymbolTableRecord
100
AcDbLayerTableRecord
  2
0
 70
     0
 62
     7
  6
Continuous
370
    -3
390
F
  0
LAYER
  5
73
330
2
100
AcDbSymbolTableRecord
100
AcDbLayerTableRecord
  2
FORMAT
 70
     0
 62
     7
  6
Continuous
370
    -3
390
F
  0
LAYER
  5
74
330
2
100
AcDbSymbolTableRecord
100
AcDbLayerTableRecord
  2
YARDIMCI_GEOMETRI
 70
     0
 62
    -6
  6
Continuous
290
     0
370
    -3
390
F
  0
LAYER
  5
75
330
2
100
AcDbSymbolTableRecord
100
AcDbLayerTableRecord
  2
SAYFA_CERCEVESI
 70
     0
 62
     7
  6
Continuous
370
    25
390
F
  0
LAYER
  5
76
330
2
100
AcDbSymbolTableRecord
100
AcDbLayerTableRecord
  2
ANTET
 70
     0
 62
     7
  6
Continuous
370
    -3
390
F
  0
LAYER
  5
77
330
2
100
AcDbSymbolTableRecord
100
AcDbLayerTableRecord
  2
OLCU
 70
     0
 62
   150
  6
Continuous
370
    -3
390
F
  0
LAYER
  5
78
330
2
100
AcDbSymbolTableRecord
100
AcDbLayerTableRecord
  2
METIN
 70
     0
 62
    96
  6
Continuous
370
    -3
390
F
  0
LAYER
  5
79
330
2
100
AcDbSymbolTableRecord
100
AcDbLayerTableRecord
  2
BALON
 70
     0
 62
     5
  6
Continuous
370
    -3
390
F
  0
LAYER
  5
7A
330
2
100
AcDbSymbolTableRecord
100
AcDbLayerTableRecord
  2
VURGU
 70
     0
 62
     7
  6
Continuous
370
    -3
390
F
  0
LAYER
  5
7B
330
2
100
AcDbSymbolTableRecord
100
AcDbLayerTableRecord
  2
SILIK
 70
     0
 62
     7
  6
Continuous
370
    -3
390
F
  0
LAYER
  5
7C
330
2
100
AcDbSymbolTableRecord
100
AcDbLayerTableRecord
  2
MODEL
 70
     0
 62
     7
  6
Continuous
370
    -3
390
F
  0
LAYER
  5
7D
330
2
100
AcDbSymbolTableRecord
100
AcDbLayerTableRecord
  2
DETAYLANDıRMA
 70
     0
 62
   190
  6
Continuous
370
    -3
390
F
  0
LAYER
  5
7E
330
2
100
AcDbSymbolTableRecord
100
AcDbLayerTableRecord
  2
TOLERANS
 70
     0
 62
   230
  6
Continuous
370
    -3
390
F
  0
LAYER
  5
7F
330
2
100
AcDbSymbolTableRecord
100
AcDbLayerTableRecord
  2
MERKEZ_CIZGILERI
 70
     0
 62
    30
  6
Continuous
370
    -3
390
F
  0
LAYER
  5
80
330
2
100
AcDbSymbolTableRecord
100
AcDbLayerTableRecord
  2
KESIT-DETAY_CIZGILERI
 70
     0
 62
     7
  6
Continuous
370
    -3
390
F
  0
LAYER
  5
81
330
2
100
AcDbSymbolTableRecord
100
AcDbLayerTableRecord
  2
\U+041E\U+0421\U+0415\U+0412\U+042B\U+0415
 70
     0
 62
     7
  6
Continuous
370
    -3
390
F
  0
LAYER
  5
82
330
2
100
AcDbSymbolTableRecord
100
AcDbLayerTableRecord
  2
\U+0412\U+041E\U+0414\U+042F\U+041D\U+042B\U+0415_\U+0417\U+041D\U+0410\U+041A\U+0418
 70
     0
 62
    11
  6
Continuous
370
    -3
390
F
  0
ENDTAB
  0
TABLE
  2
STYLE
  5
3
330
0
100
AcDbSymbolTable
 70
     1
  0
STYLE
  5
11
330
3
100
AcDbSymbolTableRecord
100
AcDbTextStyleTableRecord
  2
Standard
 70
     0
 40
0.0
 41
1.0
 50
0.0
 71
     0
 42
3.5
  3
txt
  4

  0
ENDTAB
  0
TABLE
  2
VIEW
  5
6
330
0
100
AcDbSymbolTable
 70
     0
  0
ENDTAB
  0
TABLE
  2
UCS
  5
7
330
0
100
AcDbSymbolTable
 70
     0
  0
ENDTAB
  0
TABLE
  2
APPID
  5
9
330
0
100
AcDbSymbolTable
 70
     1
  0
APPID
  5
12
330
9
100
AcDbSymbolTableRecord
100
AcDbRegAppTableRecord
  2
ACAD
 70
     0
  0
ENDTAB
  0
TABLE
  2
DIMSTYLE
  5
A
330
0
100
AcDbSymbolTable
 70
     1
100
AcDbDimStyleTable
  0
DIMSTYLE
105
27
330
A
100
AcDbSymbolTableRecord
100
AcDbDimStyleTableRecord
  2
ISO-25
 70
     0
 41
2.5
 42
0.625
 43
3.75
 44
1.25
 73
     0
 74
     0
 77
     1
 78
     8
140
2.5
141
2.5
143
0.0393700787
147
0.625
171
     3
172
     1
178
     0
271
     2
272
     2
274
     3
278
    44
283
     0
284
     8
340
11
  0
ENDTAB
  0
TABLE
  2
BLOCK_RECORD
  5
1
330
0
100
AcDbSymbolTable
 70
     2
  0
BLOCK_RECORD
  5
1F
330
1
100
AcDbSymbolTableRecord
100
AcDbBlockTableRecord
  2
*Model_Space
340
22
  0
BLOCK_RECORD
  5
1B
330
1
100
AcDbSymbolTableRecord
100
AcDbBlockTableRecord
  2
*Paper_Space
340
1E
  0
BLOCK_RECORD
  5
23
330
1
100
AcDbSymbolTableRecord
100
AcDbBlockTableRecord
  2
*Paper_Space0
340
26
  0
BLOCK_RECORD
  5
87
330
1
100
AcDbSymbolTableRecord
100
AcDbBlockTableRecord
  2
SW_CENTERMARKSYMBOL_0
340
0
102
{BLKREFS
331
92
102
}
  0
ENDTAB
  0
ENDSEC
  0
SECTION
  2
BLOCKS
  0
BLOCK
  5
20
330
1F
100
AcDbEntity
  8
0
100
AcDbBlockBegin
  2
*Model_Space
 70
     0
 10
0.0
 20
0.0
 30
0.0
  3
*Model_Space
  1

  0
ENDBLK
  5
21
330
1F
100
AcDbEntity
  8
0
100
AcDbBlockEnd
  0
BLOCK
  5
1C
330
1B
100
AcDbEntity
 67
     1
  8
0
100
AcDbBlockBegin
  2
*Paper_Space
 70
     0
 10
0.0
 20
0.0
 30
0.0
  3
*Paper_Space
  1

  0
ENDBLK
  5
1D
330
1B
100
AcDbEntity
 67
     1
  8
0
100
AcDbBlockEnd
  0
BLOCK
  5
24
330
23
100
AcDbEntity
  8
0
100
AcDbBlockBegin
  2
*Paper_Space0
 70
     0
 10
0.0
 20
0.0
 30
0.0
  3
*Paper_Space0
  1

  0
ENDBLK
  5
25
330
23
100
AcDbEntity
  8
0
100
AcDbBlockEnd
  0
BLOCK
  5
88
330
87
100
AcDbEntity
  8
0
100
AcDbBlockBegin
  2
SW_CENTERMARKSYMBOL_0
 70
     0
 10
0.0
 20
0.0
 30
0.0
  3
SW_CENTERMARKSYMBOL_0
  1

  0
LINE
  5
8A
330
87
100
AcDbEntity
  8
FORMAT
 62
     0
100
AcDbLine
 10
0.0
 20
0.0
 30
0.0
 11
0.0
 21
2.5
 31
0.0
  0
LINE
  5
8B
330
87
100
AcDbEntity
  8
FORMAT
 62
     0
100
AcDbLine
 10
0.0
 20
0.0
 30
0.0
 11
-2.5
 21
0.0
 31
0.0
  0
LINE
  5
8C
330
87
100
AcDbEntity
  8
FORMAT
 62
     0
100
AcDbLine
 10
0.0
 20
0.0
 30
0.0
 11
0.0
 21
-2.5
 31
0.0
  0
LINE
  5
8D
330
87
100
AcDbEntity
  8
FORMAT
 62
     0
100
AcDbLine
 10
0.0
 20
0.0
 30
0.0
 11
2.5
 21
0.0
 31
0.0
  0
LINE
  5
8E
330
87
100
AcDbEntity
  8
FORMAT
 62
     0
100
AcDbLine
 10
0.0
 20
5.0
 30
0.0
 11
0.0
 21
108.5
 31
0.0
  0
LINE
  5
8F
330
87
100
AcDbEntity
  8
FORMAT
 62
     0
100
AcDbLine
 10
-5.0
 20
0.0
 30
0.0
 11
-108.5
 21
0.0
 31
0.0
  0
LINE
  5
90
330
87
100
AcDbEntity
  8
FORMAT
 62
     0
100
AcDbLine
 10
0.0
 20
-5.0
 30
0.0
 11
0.0
 21
-108.5
 31
0.0
  0
LINE
  5
91
330
87
100
AcDbEntity
  8
FORMAT
 62
     0
100
AcDbLine
 10
5.0
 20
0.0
 30
0.0
 11
108.5
 21
0.0
 31
0.0
  0
ENDBLK
  5
89
330
87
100
AcDbEntity
  8
0
100
AcDbBlockEnd
  0
ENDSEC
  0
SECTION
  2
ENTITIES
  0
CIRCLE
  5
83
330
1F
100
AcDbEntity
  8
0
  6
Continuous
 62
     7
370
    25
100
AcDbCircle
 10
140.6895968632
 20
108.8040688633
 30
0.0
 40
80.00000000000001
  0
CIRCLE
  5
84
330
1F
100
AcDbEntity
  8
0
  6
Continuous
 62
     7
370
    25
100
AcDbCircle
 10
140.6895968632
 20
108.8040688633
 30
0.0
 40
65.4
  0
CIRCLE
  5
85
330
1F
100
AcDbEntity
  8
0
  6
Continuous
 62
     7
370
    25
100
AcDbCircle
 10
140.6895968632
 20
108.8040688633
 30
0.0
 40
87.5
  0
CIRCLE
  5
86
330
1F
100
AcDbEntity
  8
0
  6
Continuous
 62
     7
370
    25
100
AcDbCircle
 10
140.6895968632
 20
108.8040688633
 30
0.0
 40
106.0
  0
INSERT
  5
92
330
1F
100
AcDbEntity
  8
FORMAT
 62
     7
100
AcDbBlockReference
  2
SW_CENTERMARKSYMBOL_0
 10
140.6895968632
 20
108.8040688633
 30
0.0
  0
LINE
  5
93
330
1F
100
AcDbEntity
  8
0
  6
Continuous
 62
     7
370
    25
100
AcDbLine
 10
246.6895968632
 20
248.6372448428
 30
0.0
 11
246.6895968632
 21
273.6372448428
 31
0.0
  0
LINE
  5
94
330
1F
100
AcDbEntity
  8
0
  6
Continuous
 62
     7
370
    25
100
AcDbLine
 10
34.6895968632
 20
273.6372448428
 30
0.0
 11
34.6895968632
 21
248.6372448428
 31
0.0
  0
LINE
  5
95
330
1F
100
AcDbEntity
  8
0
  6
Continuous
 62
     7
370
    25
100
AcDbLine
 10
228.1895968632
 20
273.6372448428
 30
0.0
 11
220.6895968632
 21
293.6372448428
 31
0.0
  0
LINE
  5
96
330
1F
100
AcDbEntity
  8
0
  6
Continuous
 62
     7
370
    25
100
AcDbLine
 10
60.6895968632
 20
293.6372448428
 30
0.0
 11
53.1895968632
 21
273.6372448428
 31
0.0
  0
LINE
  5
97
330
1F
100
AcDbEntity
  8
0
  6
Continuous
 62
     7
370
    25
100
AcDbLine
 10
220.6895968632
 20
293.6372448428
 30
0.0
 11
220.6895968632
 21
448.6372448428
 31
0.0
  0
LINE
  5
98
330
1F
100
AcDbEntity
  8
0
  6
Continuous
 62
     7
370
    25
100
AcDbLine
 10
60.6895968632
 20
448.6372448428
 30
0.0
 11
60.6895968632
 21
293.6372448428
 31
0.0
  0
LINE
  5
99
330
1F
100
AcDbEntity
  8
0
  6
Continuous
 62
     7
370
    25
100
AcDbLine
 10
246.6895968632
 20
248.6372448428
 30
0.0
 11
34.6895968632
 21
248.6372448428
 31
0.0
  0
LINE
  5
9A
330
1F
100
AcDbEntity
  8
0
  6
Continuous
 62
     7
370
    25
100
AcDbLine
 10
246.6895968632
 20
273.6372448428
 30
0.0
 11
34.6895968632
 21
273.6372448428
 31
0.0
  0
LINE
  5
9B
330
1F
100
AcDbEntity
  8
0
  6
Continuous
 62
     7
370
    25
100
AcDbLine
 10
220.6895968632
 20
293.6372448428
 30
0.0
 11
60.6895968632
 21
293.6372448428
 31
0.0
  0
LINE
  5
9C
330
1F
100
AcDbEntity
  8
0
  6
Continuous
 62
     7
370
    25
100
AcDbLine
 10
220.6895968632
 20
448.6372448428
 30
0.0
 11
60.6895968632
 21
448.6372448428
 31
0.0
  0
LINE
  5
9D
330
1F
100
AcDbEntity
  8
0
  6
Continuous
 62
     7
370
    25
100
AcDbLine
 10
0.646512888
 20
214.8040688633
 30
0.0
 11
-24.353487112
 21
214.8040688633
 31
0.0
  0
LINE
  5
9E
330
1F
100
AcDbEntity
  8
0
  6
Continuous
 62
     7
370
    25
100
AcDbLine
 10
-24.353487112
 20
2.8040688633
 30
0.0
 11
0.646512888
 21
2.8040688633
 31
0.0
  0
LINE
  5
9F
330
1F
100
AcDbEntity
  8
0
  6
Continuous
 62
     7
370
    25
100
AcDbLine
 10
-24.353487112
 20
196.3040688633
 30
0.0
 11
-44.353487112
 21
188.8040688633
 31
0.0
  0
LINE
  5
A0
330
1F
100
AcDbEntity
  8
0
  6
Continuous
 62
     7
370
    25
100
AcDbLine
 10
-44.353487112
 20
28.8040688633
 30
0.0
 11
-24.353487112
 21
21.3040688633
 31
0.0
  0
LINE
  5
A1
330
1F
100
AcDbEntity
  8
0
  6
Continuous
 62
     7
370
    25
100
AcDbLine
 10
-44.353487112
 20
188.8040688633
 30
0.0
 11
-199.353487112
 21
188.8040688633
 31
0.0
  0
LINE
  5
A2
330
1F
100
AcDbEntity
  8
0
  6
Continuous
 62
     7
370
    25
100
AcDbLine
 10
-199.353487112
 20
28.8040688633
 30
0.0
 11
-44.353487112
 21
28.8040688633
 31
0.0
  0
LINE
  5
A3
330
1F
100
AcDbEntity
  8
0
  6
Continuous
 62
     7
370
    25
100
AcDbLine
 10
0.646512888
 20
214.8040688633
 30
0.0
 11
0.646512888
 21
2.8040688633
 31
0.0
  0
LINE
  5
A4
330
1F
100
AcDbEntity
  8
0
  6
Continuous
 62
     7
370
    25
100
AcDbLine
 10
-24.353487112
 20
214.8040688633
 30
0.0
 11
-24.353487112
 21
2.8040688633
 31
0.0
  0
LINE
  5
A5
330
1F
100
AcDbEntity
  8
0
  6
Continuous
 62
     7
370
    25
100
AcDbLine
 10
-44.353487112
 20
188.8040688633
 30
0.0
 11
-44.353487112
 21
28.8040688633
 31
0.0
  0
LINE
  5
A6
330
1F
100
AcDbEntity
  8
0
  6
Continuous
 62
     7
370
    25
100
AcDbLine
 10
-199.353487112
 20
188.8040688633
 30
0.0
 11
-199.353487112
 21
28.8040688633
 31
0.0
  0
LINE
  5
A7
330
1F
100
AcDbEntity
  8
0
  6
Continuous
 62
     7
370
    25
100
AcDbLine
 10
290.5226856221
 20
2.8040688633
 30
0.0
 11
315.5226856221
 21
2.8040688633
 31
0.0
  0
LINE
  5
A8
330
1F
100
AcDbEntity
  8
0
  6
Continuous
 62
     7
370
    25
100
AcDbLine
 10
315.5226856221
 20
214.8040688633
 30
0.0
 11
290.5226856221
 21
214.8040688633
 31
0.0
  0
LINE
  5
A9
330
1F
100
AcDbEntity
  8
0
  6
Continuous
 62
     7
370
    25
100
AcDbLine
 10
315.5226856221
 20
21.3040688633
 30
0.0
 11
335.5226856221
 21
28.8040688633
 31
0.0
  0
LINE
  5
AA
330
1F
100
AcDbEntity
  8
0
  6
Continuous
 62
     7
370
    25
100
AcDbLine
 10
335.5226856221
 20
188.8040688633
 30
0.0
 11
315.5226856221
 21
196.3040688633
 31
0.0
  0
LINE
  5
AB
330
1F
100
AcDbEntity
  8
0
  6
Continuous
 62
     7
370
    25
100
AcDbLine
 10
335.5226856221
 20
28.8040688633
 30
0.0
 11
490.5226856221
 21
28.8040688633
 31
0.0
  0
LINE
  5
AC
330
1F
100
AcDbEntity
  8
0
  6
Continuous
 62
     7
370
    25
100
AcDbLine
 10
490.5226856221
 20
188.8040688633
 30
0.0
 11
335.5226856221
 21
188.8040688633
 31
0.0
  0
LINE
  5
AD
330
1F
100
AcDbEntity
  8
0
  6
Continuous
 62
     7
370
    25
100
AcDbLine
 10
290.5226856221
 20
108.8040688633
 30
0.0
 11
290.5226856221
 21
214.8040688633
 31
0.0
  0
LINE
  5
AE
330
1F
100
AcDbEntity
  8
0
  6
Continuous
 62
     7
370
    25
100
AcDbLine
 10
290.5226856221
 20
2.8040688633
 30
0.0
 11
290.5226856221
 21
108.8040688633
 31
0.0
  0
LINE
  5
AF
330
1F
100
AcDbEntity
  8
0
  6
Continuous
 62
     7
370
    25
100
AcDbLine
 10
315.5226856221
 20
108.8040688633
 30
0.0
 11
315.5226856221
 21
214.8040688633
 31
0.0
  0
LINE
  5
B0
330
1F
100
AcDbEntity
  8
0
  6
Continuous
 62
     7
370
    25
100
AcDbLine
 10
315.5226856221
 20
2.8040688633
 30
0.0
 11
315.5226856221
 21
108.8040688633
 31
0.0
  0
LINE
  5
B1
330
1F
100
AcDbEntity
  8
0
  6
Continuous
 62
     7
370
    25
100
AcDbLine
 10
335.5226856221
 20
108.8040688633
 30
0.0
 11
335.5226856221
 21
188.8040688633
 31
0.0
  0
LINE
  5
B2
330
1F
100
AcDbEntity
  8
0
  6
Continuous
 62
     7
370
    25
100
AcDbLine
 10
335.5226856221
 20
28.8040688633
 30
0.0
 11
335.5226856221
 21
108.8040688633
 31
0.0
  0
LINE
  5
B3
330
1F
100
AcDbEntity
  8
0
  6
Continuous
 62
     7
370
    25
100
AcDbLine
 10
490.5226856221
 20
108.8040688633
 30
0.0
 11
490.5226856221
 21
188.8040688633
 31
0.0
  0
LINE
  5
B4
330
1F
100
AcDbEntity
  8
0
  6
Continuous
 62
     7
370
    25
100
AcDbLine
 10
490.5226856221
 20
28.8040688633
 30
0.0
 11
490.5226856221
 21
108.8040688633
 31
0.0
  0
LINE
  5
B5
330
1F
100
AcDbEntity
  8
0
  6
Continuous
 62
     7
370
    25
100
AcDbLine
 10
34.6895968632
 20
-28.5211461509
 30
0.0
 11
34.6895968632
 21
-53.5211461509
 31
0.0
  0
LINE
  5
B6
330
1F
100
AcDbEntity
  8
0
  6
Continuous
 62
     7
370
    25
100
AcDbLine
 10
246.6895968632
 20
-53.5211461509
 30
0.0
 11
246.6895968632
 21
-28.5211461509
 31
0.0
  0
LINE
  5
B7
330
1F
100
AcDbEntity
  8
0
  6
Continuous
 62
     7
370
    25
100
AcDbLine
 10
53.1895968632
 20
-53.5211461509
 30
0.0
 11
60.6895968632
 21
-73.5211461509
 31
0.0
  0
LINE
  5
B8
330
1F
100
AcDbEntity
  8
0
  6
Continuous
 62
     7
370
    25
100
AcDbLine
 10
220.6895968632
 20
-73.5211461509
 30
0.0
 11
228.1895968632
 21
-53.5211461509
 31
0.0
  0
LINE
  5
B9
330
1F
100
AcDbEntity
  8
0
  6
Continuous
 62
     7
370
    25
100
AcDbLine
 10
60.6895968632
 20
-73.5211461509
 30
0.0
 11
60.6895968632
 21
-228.5211461509
 31
0.0
  0
LINE
  5
BA
330
1F
100
AcDbEntity
  8
0
  6
Continuous
 62
     7
370
    25
100
AcDbLine
 10
220.6895968632
 20
-228.5211461509
 30
0.0
 11
220.6895968632
 21
-73.5211461509
 31
0.0
  0
LINE
  5
BB
330
1F
100
AcDbEntity
  8
0
  6
Continuous
 62
     7
370
    25
100
AcDbLine
 10
34.6895968632
 20
-28.5211461509
 30
0.0
 11
246.6895968632
 21
-28.5211461509
 31
0.0
  0
LINE
  5
BC
330
1F
100
AcDbEntity
  8
0
  6
Continuous
 62
     7
370
    25
100
AcDbLine
 10
34.6895968632
 20
-53.5211461509
 30
0.0
 11
246.6895968632
 21
-53.5211461509
 31
0.0
  0
LINE
  5
BD
330
1F
100
AcDbEntity
  8
0
  6
Continuous
 62
     7
370
    25
100
AcDbLine
 10
60.6895968632
 20
-73.5211461509
 30
0.0
 11
220.6895968632
 21
-73.5211461509
 31
0.0
  0
LINE
  5
BE
330
1F
100
AcDbEntity
  8
0
  6
Continuous
 62
     7
370
    25
100
AcDbLine
 10
60.6895968632
 20
-228.5211461509
 30
0.0
 11
220.6895968632
 21
-228.5211461509
 31
0.0
  0
LINE
  5
BF
330
1F
100
AcDbEntity
  8
0
  6
Continuous
 62
     7
370
    25
100
AcDbLine
 10
349.5718922805
 20
-64.3097857771
 30
0.0
 11
277.2341069963
 21
-134.9136818318
 31
0.0
  0
LINE
  5
C0
330
1F
100
AcDbEntity
  8
0
  6
Continuous
 62
     7
370
    25
100
AcDbLine
 10
388.9906123804
 20
-249.4147014968
 30
0.0
 11
461.3283976646
 21
-178.8108054422
 31
0.0
  0
LINE
  5
C1
330
1F
100
AcDbEntity
  8
0
  6
Continuous
 62
     7
370
    25
100
AcDbLine
 10
352.4127526574
 20
-25.2054647754
 30
0.0
 11
340.7453679341
 21
-36.5931899455
 31
0.0
  0
LINE
  5
C2
330
1F
100
AcDbEntity
  8
0
  6
Continuous
 62
     7
370
    25
100
AcDbLine
 10
488.8227375681
 20
-188.3070410017
 30
0.0
 11
500.4901222913
 21
-176.9193158316
 31
0.0
  0
LWPOLYLINE
  5
C3
330
1F
100
AcDbEntity
  8
0
  6
Continuous
 62
     7
370
    25
100
AcDbPolyline
 90
       59
 70
   128
 43
0.0
 10
349.5718922805
 20
-64.3097857771
 10
349.8710438463
 20
-64.0204369118
 10
352.3902096076
 20
-61.7770508005
 10
355.0733805885
 20
-59.7184512728
 10
357.9122632611
 20
-57.851001342
 10
360.8980828018
 20
-56.1804731887
 10
364.0216102134
 20
-54.7120303198
 10
367.2731908519
 20
-53.4502116079
 10
370.6427742677
 20
-52.3989172625
 10
374.1199452716
 20
-51.561396774
 10
377.6939561273
 20
-50.9402388704
 10
381.3537597721
 20
-50.5373635151
 10
385.0880439627
 20
-50.3540159727
 10
388.8852662405
 20
-50.3907629601
 10
392.7336896093
 20
-50.6474908943
 10
396.6214188128
 20
-51.123406244
 10
400.5364371029
 20
-51.8170379822
 10
404.4666433825
 20
-52.7262421328
 10
408.3998896091
 20
-53.8482083981
 10
412.324018344
 20
-55.1794688445
 10
416.2269003303
 20
-56.7159086223
 10
420.0964719834
 20
-58.4527786842
 10
423.9207726791
 20
-60.3847104644
 10
427.687981723
 20
-62.5057324724
 10
431.3864548879
 20
-64.8092887508
 10
435.0047604052
 20
-67.2882591391
 10
438.5317142999
 20
-69.934981282
 10
441.9564149597
 20
-72.7412743129
 10
445.268276831
 20
-75.698464141
 10
448.4570631386
 20
-78.7974102619
 10
451.5129175268
 20
-82.0285340107
 10
454.4263945248
 20
-85.3818481692
 10
457.1884887421
 20
-88.8469878354
 10
459.7906627039
 20
-92.4132424612
 10
462.2248732395
 20
-96.069588958
 10
464.4835963436
 20
-99.8047257682
 10
466.5598504326
 20
-103.607107798
 10
468.4472179241
 20
-107.4649821025
 10
470.1398650733
 20
-111.3664242133
 10
471.6325600049
 20
-115.2993749963
 10
472.9206888843
 20
-119.2516779262
 10
474.0002701792
 20
-123.2111166611
 10
474.8679669654
 20
-127.1654528027
 10
475.5210972421
 20
-131.1024637246
 10
475.9576422209
 20
-135.0099803517
 10
476.1762525663
 20
-138.875924774
 10
476.1762525663
 20
-142.688347579
 10
475.9576422209
 20
-146.435464786
 10
475.5210972421
 20
-150.1056942707
 10
474.8679669654
 20
-153.687691564
 10
474.0002701792
 20
-157.1703849176
 10
472.9206888843
 20
-160.5430095258
 10
471.6325600049
 20
-163.7951407993
 10
470.1398650733
 20
-166.9167265868
 10
468.4472179241
 20
-169.8981182453
 10
466.5598504326
 20
-172.7301004642
 10
464.4835963436
 20
-175.4039197488
 10
462.2248732395
 20
-177.9113114767
 10
461.3283976646
 20
-178.8108054422
  0
LWPOLYLINE
  5
C4
330
1F
100
AcDbEntity
  8
0
  6
Continuous
 62
     7
370
    25
100
AcDbPolyline
 90
      114
 70
   128
 43
0.0
 10
262.3589099542
 20
-172.9349200896
 10
262.4682573834
 20
-169.1536888551
 10
262.7959616843
 20
-165.4435817662
 10
263.3410099419
 20
-161.8160665511
 10
264.1017174431
 20
-158.2823556516
 10
265.0757328846
 20
-154.8533715655
 10
266.2600456405
 20
-151.5397130861
 10
267.650995068
 20
-148.351622542
 10
269.2442818222
 20
-145.2989541381
 10
271.0349811448
 20
-142.3911434978
 10
273.0175580871
 20
-139.6371784969
 10
275.1858846172
 20
-137.0455714836
 10
277.5332585621
 20
-134.6243329665
 10
280.0524243235
 20
-132.3809468552
 10
282.7355953043
 20
-130.3223473275
 10
285.5744779769
 20
-128.4548973967
 10
288.5602975176
 20
-126.7843692434
 10
291.6838249293
 20
-125.3159263744
 10
294.9354055677
 20
-124.0541076626
 10
298.3049889835
 20
-123.0028133171
 10
301.7821599874
 20
-122.1652928287
 10
305.3561708432
 20
-121.5441349251
 10
309.015974488
 20
-121.1412595698
 10
312.7502586785
 20
-120.9579120274
 10
316.5474809564
 20
-120.9946590147
 10
320.3959043251
 20
-121.2513869489
 10
324.2836335286
 20
-121.7273022987
 10
328.1986518187
 20
-122.4209340368
 10
332.1288580983
 20
-123.3301381875
 10
336.0621043249
 20
-124.4521044528
 10
339.9862330599
 20
-125.7833648992
 10
343.8891150462
 20
-127.319804677
 10
347.7586866993
 20
-129.0566747389
 10
351.5829873949
 20
-130.988606519
 10
355.3501964388
 20
-133.1096285271
 10
359.0486696037
 20
-135.4131848055
 10
362.6669751211
 20
-137.8921551938
 10
366.1939290158
 20
-140.5388773367
 10
369.6186296755
 20
-143.3451703676
 10
372.9304915468
 20
-146.3023601956
 10
376.1192778545
 20
-149.4013063165
 10
379.1751322427
 20
-152.6324300654
 10
382.0886092407
 20
-155.9857442239
 10
384.850703458
 20
-159.4508838901
 10
387.4528774197
 20
-163.0171385159
 10
389.8870879553
 20
-166.6734850127
 10
392.1458110594
 20
-170.4086218229
 10
394.2220651484
 20
-174.2110038527
 10
396.1094326399
 20
-178.0688781572
 10
397.8020797891
 20
-181.9703202679
 10
399.2947747207
 20
-185.903271051
 10
400.5829036002
 20
-189.8555739809
 10
401.662484895
 20
-193.8150127157
 10
402.5301816813
 20
-197.7693488573
 10
403.1833119579
 20
-201.7063597792
 10
403.6198569367
 20
-205.6138764064
 10
403.8384672822
 20
-209.4798208287
 10
403.8384672822
 20
-213.2922436336
 10
403.6198569367
 20
-217.0393608407
 10
403.1833119579
 20
-220.7095903254
 10
402.5301816813
 20
-224.2915876187
 10
401.662484895
 20
-227.7742809722
 10
400.5829036002
 20
-231.1469055805
 10
399.2947747207
 20
-234.399036854
 10
397.8020797891
 20
-237.5206226414
 10
396.1094326399
 20
-240.5020143
 10
394.2220651484
 20
-243.3339965189
 10
392.1458110594
 20
-246.0078158034
 10
389.8870879553
 20
-248.5152075314
 10
387.4528774197
 20
-250.8484214986
 10
384.850703458
 20
-253.0002458745
 10
382.0886092407
 20
-254.9640294933
 10
379.1751322427
 20
-256.7337024122
 10
376.1192778545
 20
-258.3037946737
 10
372.9304915468
 20
-259.6694532126
 10
369.6186296755
 20
-260.8264568566
 10
366.1939290158
 20
-261.7712293738
 10
362.6669751211
 20
-262.5008505265
 10
359.0486696037
 20
-263.0130650974
 10
355.3501964388
 20
-263.3062898607
 10
351.5829873949
 20
-263.3796184755
 10
347.7586866993
 20
-263.2328242873
 10
343.8891150462
 20
-262.8663610283
 10
339.9862330599
 20
-262.2813614157
 10
336.0621043249
 20
-261.4796336496
 10
332.1288580983
 20
-260.4636558246
 10
328.1986518187
 20
-259.23656827
 10
324.2836335286
 20
-257.802163843
 10
320.3959043251
 20
-256.1648762056
 10
316.5474809564
 20
-254.32976612
 10
312.7502586785
 20
-252.3025058064
 10
309.015974488
 20
-250.0893614101
 10
305.3561708432
 20
-247.6971736337
 10
301.7821599874
 20
-245.1333365925
 10
298.3049889835
 20
-242.4057749598
 10
294.9354055677
 20
-239.5229194725
 10
291.6838249293
 20
-236.4936808714
 10
288.5602975176
 20
-233.3274223597
 10
285.5744779769
 20
-230.0339306609
 10
282.7355953043
 20
-226.623385769
 10
280.0524243235
 20
-223.1063294829
 10
277.5332585621
 20
-219.4936328221
 10
275.1858846172
 20
-215.7964624248
 10
273.0175580871
 20
-212.0262460329
 10
271.0349811448
 20
-208.1946371693
 10
269.2442818222
 20
-204.3134791172
 10
267.650995068
 20
-200.3947683138
 10
266.2600456405
 20
-196.4506172698
 10
265.0757328846
 20
-192.4932171298
 10
264.1017174431
 20
-188.5347999909
 10
263.3410099419
 20
-184.5876010937
 10
262.7959616843
 20
-180.6638210038
 10
262.4682573834
 20
-176.7755879005
 10
262.3589099542
 20
-172.9349200896
  0
LWPOLYLINE
  5
C5
330
1F
100
AcDbEntity
  8
0
  6
Continuous
 62
     7
370
    25
100
AcDbPolyline
 90
      103
 70
   128
 43
0.0
 10
275.2714145306
 20
-176.444262152
 10
275.3811197892
 20
-173.0230507692
 10
275.709819415
 20
-169.6744482901
 10
276.256266538
 20
-166.411157111
 10
277.018388297
 20
-163.245556013
 10
277.9932937032
 20
-160.1896532055
 10
279.1772846063
 20
-157.2550407744
 10
280.5658697234
 20
-154.4528507099
 10
282.1537816754
 20
-151.7937126788
 10
283.9349969685
 20
-149.2877137024
 10
285.9027588429
 20
-146.9443598932
 10
288.0496029038
 20
-144.7725403949
 10
290.3673854363
 20
-142.7804936627
 10
292.8473142975
 20
-140.9757762123
 10
295.4799822676
 20
-139.365233955
 10
298.2554027354
 20
-137.9549762293
 10
301.1630475803
 20
-136.7503526258
 10
304.1918871095
 20
-135.7559326945
 10
307.3304318972
 20
-134.9754886107
 10
310.566776368
 20
-134.4119808663
 10
313.8886439588
 20
-134.067547039
 10
317.2834336879
 20
-133.9434936843
 10
320.7382679552
 20
-134.0402913793
 10
324.2400413909
 20
-134.3575729369
 10
327.7754705688
 20
-134.8941347996
 10
331.3311443953
 20
-135.6479416046
 10
334.8935749814
 20
-136.6161339042
 10
338.4492488079
 20
-137.7950390136
 10
341.9846779858
 20
-139.1801849419
 10
345.4864514215
 20
-140.766317356
 10
348.9412856888
 20
-142.5474195125
 10
352.336075418
 20
-144.5167350808
 10
355.6579430087
 20
-146.6667937724
 10
358.8942874795
 20
-148.9894396782
 10
362.0328322672
 20
-151.4758622068
 10
365.0616717964
 20
-154.1166295059
 10
367.9693166413
 20
-156.9017242404
 10
370.7447371091
 20
-159.8205815923
 10
373.3774050792
 20
-162.8621293356
 10
375.8573339404
 20
-166.0148298381
 10
378.1751164729
 20
-169.2667238269
 10
380.3219605338
 20
-172.6054757541
 10
382.2897224082
 20
-176.0184205901
 10
384.0709377013
 20
-179.4926118661
 10
385.6588496533
 20
-183.0148707847
 10
387.0474347704
 20
-186.5718362113
 10
388.2314256735
 20
-190.1500153576
 10
389.2063310797
 20
-193.7358349645
 10
389.9684528387
 20
-197.3156927901
 10
390.5148999617
 20
-200.8760092074
 10
390.8435995876
 20
-204.4032787167
 10
390.9533048461
 20
-207.8841211767
 10
390.8435995876
 20
-211.3053325595
 10
390.5148999617
 20
-214.6539350385
 10
389.9684528387
 20
-217.9172262176
 10
389.2063310797
 20
-221.0828273156
 10
388.2314256735
 20
-224.1387301232
 10
387.0474347704
 20
-227.0733425543
 10
385.6588496533
 20
-229.8755326187
 10
384.0709377013
 20
-232.5346706499
 10
382.2897224082
 20
-235.0406696263
 10
380.3219605338
 20
-237.3840234354
 10
378.1751164729
 20
-239.5558429337
 10
375.8573339404
 20
-241.5478896659
 10
373.3774050792
 20
-243.3526071164
 10
370.7447371091
 20
-244.9631493737
 10
367.9693166413
 20
-246.3734070994
 10
365.0616717964
 20
-247.5780307028
 10
362.0328322672
 20
-248.5724506342
 10
358.8942874795
 20
-249.3528947179
 10
355.6579430087
 20
-249.9164024624
 10
352.336075418
 20
-250.2608362897
 10
348.9412856888
 20
-250.3848896443
 10
345.4864514215
 20
-250.2880919494
 10
341.9846779858
 20
-249.9708103918
 10
338.4492488079
 20
-249.434248529
 10
334.8935749814
 20
-248.6804417241
 10
331.3311443953
 20
-247.7122494244
 10
327.7754705688
 20
-246.5333443151
 10
324.2400413909
 20
-245.1481983868
 10
320.7382679552
 20
-243.5620659727
 10
317.2834336879
 20
-241.7809638162
 10
313.8886439588
 20
-239.8116482479
 10
310.566776368
 20
-237.6615895563
 10
307.3304318972
 20
-235.3389436504
 10
304.1918871095
 20
-232.8525211218
 10
301.1630475803
 20
-230.2117538228
 10
298.2554027354
 20
-227.4266590882
 10
295.4799822676
 20
-224.5078017364
 10
292.8473142975
 20
-221.466253993
 10
290.3673854363
 20
-218.3135534905
 10
288.0496029038
 20
-215.0616595018
 10
285.9027588429
 20
-211.7229075746
 10
283.9349969685
 20
-208.3099627386
 10
282.1537816754
 20
-204.8357714625
 10
280.5658697234
 20
-201.3135125439
 10
279.1772846063
 20
-197.7565471174
 10
277.9932937032
 20
-194.1783679711
 10
277.018388297
 20
-190.5925483641
 10
276.256266538
 20
-187.0126905385
 10
275.709819415
 20
-183.4523741213
 10
275.3811197892
 20
-179.9251046119
 10
275.2714145306
 20
-176.444262152
  0
LWPOLYLINE
  5
C6
330
1F
100
AcDbEntity
  8
0
  6
Continuous
 62
     7
370
    25
100
AcDbPolyline
 90
       67
 70
   128
 43
0.0
 10
352.4127526574
 20
-25.2054647754
 10
353.3582759339
 20
-24.3022147893
 10
356.2798116594
 20
-21.7400977492
 10
359.3652364684
 20
-19.3632415987
 10
362.6073442083
 20
-17.1771975956
 10
365.9985627863
 20
-15.1870713468
 10
369.5309718543
 20
-13.3975108846
 10
373.1963213071
 20
-11.8126958103
 10
376.9860505513
 20
-10.4363275328
 10
380.8913084987
 20
-9.2716206242
 10
384.9029742383
 20
-8.3212953112
 10
389.011678339
 20
-7.5875711229
 10
393.207824732
 20
-7.0721617059
 10
397.4816131228
 20
-6.7762708229
 10
401.8230618808
 20
-6.7005895407
 10
406.2220313511
 20
-6.8452946164
 10
410.6682475368
 20
-7.2100480848
 10
415.1513260938
 20
-7.793998047
 10
419.6607965846
 20
-8.595780661
 10
424.1861269319
 20
-9.6135233263
 10
428.7167480169
 20
-10.8448490577
 10
433.2420783641
 20
-12.286882037
 10
437.7515488549
 20
-13.9362543293
 10
442.234627412
 20
-15.7891137491
 10
446.6808435976
 20
-17.8411328576
 10
451.0798130679
 20
-20.0875190688
 10
455.4212618259
 20
-22.5230258439
 10
459.6950502168
 20
-25.1419649437
 10
463.8911966097
 20
-27.9382197148
 10
467.9999007104
 20
-30.9052593746
 10
472.01156645
 20
-34.0361542644
 10
475.9168243974
 20
-37.3235920341
 10
479.7065536416
 20
-40.7598947206
 10
483.3719030945
 20
-44.3370366796
 10
486.9043121624
 20
-48.0466633304
 10
490.2955307404
 20
-51.8801106681
 10
493.5376384803
 20
-55.8284254987
 10
496.6230632894
 20
-59.8823863501
 10
499.5445990149
 20
-64.0325250088
 10
502.2954222748
 20
-68.2691486336
 10
504.869108394
 20
-72.5823623939
 10
507.2596464092
 20
-76.962092579
 10
509.4614531082
 20
-81.3981101261
 10
511.4693860694
 20
-85.8800545107
 10
513.2787556723
 20
-90.3974579441
 10
514.8853360503
 20
-94.9397698211
 10
516.2853749607
 20
-99.496381362
 10
517.4756025475
 20
-104.0566503893
 10
518.4532389792
 20
-108.6099261834
 10
519.2160009405
 20
-113.1455743578
 10
519.7621069656
 20
-117.6530016959
 10
520.0902815985
 20
-122.1216808924
 10
520.1997583722
 20
-126.54117514
 10
520.0902815985
 20
-130.901162505
 10
519.7621069656
 20
-135.1914600349
 10
519.2160009405
 20
-139.4020475411
 10
518.4532389792
 20
-143.5230910013
 10
517.4756025475
 20
-147.5449655276
 10
516.2853749607
 20
-151.4582778457
 10
514.8853360503
 20
-155.2538882333
 10
513.2787556723
 20
-158.9229318665
 10
511.4693860694
 20
-162.4568395239
 10
509.4614531082
 20
-165.8473576004
 10
507.2596464092
 20
-169.086567384
 10
504.869108394
 20
-172.1669035501
 10
502.2954222748
 20
-175.0811718308
 10
500.4901222913
 20
-176.9193158316
  0
LWPOLYLINE
  5
C7
330
1F
100
AcDbEntity
  8
0
  6
Continuous
 62
     7
370
    25
100
AcDbPolyline
 90
       95
 70
   128
 43
0.0
 10
321.0357318533
 20
-86.9713306371
 10
321.145208627
 20
-82.6113432721
 10
321.4733832599
 20
-78.3210457422
 10
322.0194892849
 20
-74.110458236
 10
322.7822512463
 20
-69.9894147758
 10
323.759887678
 20
-65.9675402495
 10
324.9501152648
 20
-62.0542279314
 10
326.3501541751
 20
-58.2586175438
 10
327.9567345532
 20
-54.5895739106
 10
329.7661041561
 20
-51.0556662531
 10
331.7740371173
 20
-47.6651481766
 10
333.9758438163
 20
-44.425938393
 10
336.3663818315
 20
-41.345602227
 10
338.9400679507
 20
-38.4313339462
 10
341.6908912106
 20
-35.6899399594
 10
344.6124269361
 20
-33.1278229193
 10
347.6978517451
 20
-30.7509667688
 10
350.9399594851
 20
-28.5649227657
 10
354.3311780631
 20
-26.574796517
 10
357.863587131
 20
-24.7852360547
 10
361.5289365838
 20
-23.2004209804
 10
365.3186658281
 20
-21.8240527029
 10
369.2239237754
 20
-20.6593457943
 10
373.2355895151
 20
-19.7090204814
 10
377.3442936158
 20
-18.975296293
 10
381.5404400087
 20
-18.459886876
 10
385.8142283996
 20
-18.163995993
 10
390.1556771575
 20
-18.0883147108
 10
394.5546466279
 20
-18.2330197865
 10
399.0008628135
 20
-18.5977732549
 10
403.4839413706
 20
-19.1817232171
 10
407.9934118614
 20
-19.9835058311
 10
412.5187422086
 20
-21.0012484964
 10
417.0493632936
 20
-22.2325742278
 10
421.5746936408
 20
-23.6746072071
 10
426.0841641316
 20
-25.3239794994
 10
430.5672426887
 20
-27.1768389192
 10
435.0134588744
 20
-29.2288580277
 10
439.4124283447
 20
-31.4752442389
 10
443.7538771027
 20
-33.910751014
 10
448.0276654935
 20
-36.5296901138
 10
452.2238118865
 20
-39.325944885
 10
456.3325159871
 20
-42.2929845447
 10
460.3441817268
 20
-45.4238794345
 10
464.2494396742
 20
-48.7113172042
 10
468.0391689184
 20
-52.1476198907
 10
471.7045183712
 20
-55.7247618497
 10
475.2369274392
 20
-59.4343885005
 10
478.6281460172
 20
-63.2678358382
 10
481.8702537571
 20
-67.2161506688
 10
484.9556785661
 20
-71.2701115202
 10
487.8772142916
 20
-75.4202501789
 10
490.6280375516
 20
-79.6568738037
 10
493.2017236707
 20
-83.970087564
 10
495.592261686
 20
-88.3498177491
 10
497.7940683849
 20
-92.7858352962
 10
499.8020013461
 20
-97.2677796808
 10
501.611370949
 20
-101.7851831142
 10
503.2179513271
 20
-106.3274949912
 10
504.6179902374
 20
-110.8841065321
 10
505.8082178243
 20
-115.4443755594
 10
506.785854256
 20
-119.9976513535
 10
507.5486162173
 20
-124.5332995279
 10
508.0947222424
 20
-129.040726866
 10
508.4228968753
 20
-133.5094060625
 10
508.5323736489
 20
-137.9289003101
 10
508.4228968753
 20
-142.2888876751
 10
508.0947222424
 20
-146.579185205
 10
507.5486162173
 20
-150.7897727112
 10
506.785854256
 20
-154.9108161714
 10
505.8082178243
 20
-158.9326906977
 10
504.6179902374
 20
-162.8460030158
 10
503.2179513271
 20
-166.6416134034
 10
501.611370949
 20
-170.3106570366
 10
499.8020013461
 20
-173.844564694
 10
497.7940683849
 20
-177.2350827706
 10
495.592261686
 20
-180.4742925541
 10
493.2017236707
 20
-183.5546287202
 10
490.6280375516
 20
-186.4688970009
 10
487.8772142916
 20
-189.2102909877
 10
484.9556785661
 20
-191.7724080279
 10
481.8702537571
 20
-194.1492641784
 10
478.6281460172
 20
-196.3353081815
 10
475.2369274392
 20
-198.3254344302
 10
471.7045183712
 20
-200.1149948924
 10
468.0391689184
 20
-201.6998099668
 10
464.2494396742
 20
-203.0761782442
 10
460.3441817268
 20
-204.2408851529
 10
456.3325159871
 20
-205.1912104658
 10
452.2238118864
 20
-205.9249346542
 10
448.0276654935
 20
-206.4403440712
 10
443.7538771027
 20
-206.7362349542
 10
439.4124283447
 20
-206.8119162364
 10
435.0134588744
 20
-206.6672111606
 10
432.9350037061
 20
-206.5236283854
  0
LWPOLYLINE
  5
C8
330
1F
100
AcDbEntity
  8
0
  6
Continuous
 62
     7
370
    25
100
AcDbPolyline
 90
        3
 70
   128
 43
0.0
 10
321.178498322
 20
-92.0226087203
 10
321.145208627
 20
-91.3908248846
 10
321.0357318533
 20
-86.9713306371
  0
LWPOLYLINE
  5
C9
330
1F
100
AcDbEntity
  8
0
  6
Continuous
 62
     7
370
    25
100
AcDbPolyline
 90
       77
 70
   128
 43
0.0
 10
339.6770684895
 20
-73.9674371369
 10
340.1239614418
 20
-72.4258473841
 10
341.3134134105
 20
-68.9259448337
 10
342.7111258888
 20
-65.5494162736
 10
344.3131369086
 20
-62.3058328411
 10
346.1149053959
 20
-59.2043888257
 10
348.111324042
 20
-56.2538756074
 10
350.2967337814
 20
-53.4626567365
 10
352.6649398327
 20
-50.8386442262
 10
355.2092292586
 20
-48.3892761251
 10
357.9223899943
 20
-46.121495433
 10
360.7967312909
 20
-44.0417304208
 10
363.8241055157
 20
-42.1558764084
 10
366.9959312476
 20
-40.4692790538
 10
370.3032176019
 20
-38.9867192006
 10
373.7365897161
 20
-37.7123993256
 10
377.2863153239
 20
-36.649931627
 10
380.9423323425
 20
-35.802327785
 10
384.6942773943
 20
-35.1719904246
 10
388.5315151836
 20
-34.7607063057
 10
392.4431686428
 20
-34.5696412578
 10
396.4181497653
 20
-34.5993368755
 10
400.4451910352
 20
-34.8497089833
 10
404.5128773665
 20
-35.3200478744
 10
408.6096784603
 20
-36.009020322
 10
412.7239814889
 20
-36.9146733588
 10
416.8441240133
 20
-38.0344398129
 10
420.9584270419
 20
-39.3651455848
 10
425.0552281358
 20
-40.9030186442
 10
429.1229144671
 20
-42.6436997229
 10
433.149955737
 20
-44.5822546712
 10
437.1249368594
 20
-46.7131884446
 10
441.0365903187
 20
-49.0304606798
 10
444.8738281079
 20
-51.5275028168
 10
448.6257731598
 20
-54.1972367184
 10
452.2817901783
 20
-57.0320947338
 10
455.8315157862
 20
-60.02404115
 10
459.2648879004
 20
-63.1645949697
 10
462.5721742546
 20
-66.444853952
 10
465.7439999865
 20
-69.8555198464
 10
468.7713742113
 20
-73.3869247499
 10
471.6457155079
 20
-77.0290585115
 10
474.3588762436
 20
-80.7715971075
 10
476.9031656695
 20
-84.6039319055
 10
479.2713717208
 20
-88.5151997363
 10
481.4567814602
 20
-92.4943136861
 10
483.4532001063
 20
-96.5299945243
 10
485.2549685936
 20
-100.6108026749
 10
486.8569796135
 20
-104.725170644
 10
488.2546920917
 20
-108.8614358085
 10
489.4441440604
 20
-113.0078734754
 10
490.4219638887
 20
-117.1527301166
 10
491.1853798401
 20
-121.2842566857
 10
491.7322279291
 20
-125.3907419217
 10
492.0609580555
 20
-129.4605455462
 10
492.1706383979
 20
-133.4821312584
 10
492.0609580555
 20
-137.4440994369
 10
491.7322279291
 20
-141.3352194523
 10
491.1853798401
 20
-145.1444615022
 10
490.4219638887
 20
-148.8610278762
 10
489.4441440604
 20
-152.474383563
 10
488.2546920917
 20
-155.9742861135
 10
486.8569796135
 20
-159.3508146735
 10
485.2549685936
 20
-162.5943981061
 10
483.4532001063
 20
-165.6958421215
 10
481.4567814602
 20
-168.6463553398
 10
479.2713717208
 20
-171.4375742106
 10
476.9031656695
 20
-174.0615867209
 10
474.3588762436
 20
-176.5109548221
 10
471.6457155079
 20
-178.7787355142
 10
468.7713742113
 20
-180.8585005263
 10
465.7439999865
 20
-182.7443545388
 10
462.5721742546
 20
-184.4309518933
 10
459.2648879004
 20
-185.9135117466
 10
455.8315157862
 20
-187.1878316216
 10
452.2817901783
 20
-188.2502993202
 10
451.4335738736
 20
-188.468456802
  0
ENDSEC
  0
SECTION
  2
OBJECTS
  0
DICTIONARY
  5
C
330
0
100
AcDbDictionary
281
     1
  3
ACAD_GROUP
350
D
  3
ACAD_LAYOUT
350
1A
  3
ACAD_MLINESTYLE
350
17
  3
ACAD_PLOTSETTINGS
350
19
  3
ACAD_PLOTSTYLENAME
350
E
  3
ACAD_SCALELIST
350
47
  0
DICTIONARY
  5
D
102
{ACAD_REACTORS
330
C
102
}
330
C
100
AcDbDictionary
281
     1
  0
DICTIONARY
  5
1A
102
{ACAD_REACTORS
330
C
102
}
330
C
100
AcDbDictionary
281
     1
  3
Layout1
350
1E
  3
Layout2
350
26
  3
Model
350
22
  0
DICTIONARY
  5
17
102
{ACAD_REACTORS
330
C
102
}
330
C
100
AcDbDictionary
281
     1
  3
Standard
350
18
  0
DICTIONARY
  5
19
102
{ACAD_REACTORS
330
C
102
}
330
C
100
AcDbDictionary
281
     1
  0
ACDBDICTIONARYWDFLT
  5
E
102
{ACAD_REACTORS
330
C
102
}
330
C
100
AcDbDictionary
281
     1
  3
Normal
350
F
100
AcDbDictionaryWithDefault
340
F
  0
DICTIONARY
  5
47
102
{ACAD_REACTORS
330
C
102
}
330
C
100
AcDbDictionary
281
     1
  3
A0
350
48
  3
A1
350
49
  3
A2
350
4A
  3
A3
350
4B
  3
A4
350
4C
  3
A5
350
4D
  3
A6
350
4E
  3
A7
350
4F
  3
A8
350
50
  3
A9
350
51
  3
B0
350
52
  3
B1
350
53
  3
B2
350
54
  3
B3
350
55
  3
B4
350
56
  3
B5
350
57
  3
B6
350
58
  3
B7
350
59
  3
B8
350
5A
  3
B9
350
5B
  3
C0
350
5C
  3
C1
350
5D
  3
C2
350
5E
  3
C3
350
5F
  3
C4
350
60
  3
C5
350
61
  3
C6
350
62
  3
C7
350
63
  3
C8
350
64
  3
C9
350
65
  3
D0
350
66
  3
D1
350
67
  3
D2
350
68
  0
LAYOUT
  5
1E
102
{ACAD_REACTORS
330
1A
102
}
330
1A
100
AcDbPlotSettings
  1

  2
none_device
  4

  6

 40
0.0
 41
0.0
 42
0.0
 43
0.0
 44
0.0
 45
0.0
 46
0.0
 47
0.0
 48
0.0
 49
0.0
140
0.0
141
0.0
142
1.0
143
1.0
 70
   688
 72
     1
 73
     0
 74
     5
  7

 75
    16
147
1.0
148
0.0
149
0.0
100
AcDbLayout
  1
Layout1
 70
     1
 71
     1
 10
0.0
 20
0.0
 11
420.0
 21
297.0
 12
0.0
 22
0.0
 32
0.0
 14
1.0000000000E+20
 24
1.0000000000E+20
 34
1.0000000000E+20
 15
-1.0000000000E+20
 25
-1.0000000000E+20
 35
-1.0000000000E+20
146
0.0
 13
0.0
 23
0.0
 33
0.0
 16
1.0
 26
0.0
 36
0.0
 17
0.0
 27
1.0
 37
0.0
 76
     0
330
1B
  0
LAYOUT
  5
26
102
{ACAD_REACTORS
330
1A
102
}
330
1A
100
AcDbPlotSettings
  1

  2
none_device
  4

  6

 40
0.0
 41
0.0
 42
0.0
 43
0.0
 44
0.0
 45
0.0
 46
0.0
 47
0.0
 48
0.0
 49
0.0
140
0.0
141
0.0
142
1.0
143
1.0
 70
   688
 72
     1
 73
     0
 74
     5
  7

 75
    16
147
1.0
148
0.0
149
0.0
100
AcDbLayout
  1
Layout2
 70
     1
 71
     2
 10
0.0
 20
0.0
 11
0.0
 21
0.0
 12
0.0
 22
0.0
 32
0.0
 14
0.0
 24
0.0
 34
0.0
 15
0.0
 25
0.0
 35
0.0
146
0.0
 13
0.0
 23
0.0
 33
0.0
 16
1.0
 26
0.0
 36
0.0
 17
0.0
 27
1.0
 37
0.0
 76
     0
330
23
  0
LAYOUT
  5
22
102
{ACAD_REACTORS
330
1A
102
}
330
1A
100
AcDbPlotSettings
  1

  2
none_device
  4
Letter_(8.50_x_11.00_Inches)
  6

 40
6.35
 41
6.35
 42
6.35000508
 43
6.35000508
 44
215.9
 45
279.4
 46
0.0
 47
0.0
 48
0.0
 49
0.0
140
0.0
141
0.0
142
1.0
143
1.0
 70
  1712
 72
     1
 73
     0
 74
     0
  7

 75
     0
147
1.0
148
0.0
149
0.0
100
AcDbLayout
  1
Model
 70
     1
 71
     0
 10
0.0
 20
0.0
 11
279.4
 21
215.9
 12
0.0
 22
0.0
 32
0.0
 14
0.0
 24
0.0
 34
0.0
 15
279.4
 25
215.9
 35
0.0
146
0.0
 13
0.0
 23
0.0
 33
0.0
 16
1.0
 26
0.0
 36
0.0
 17
0.0
 27
1.0
 37
0.0
 76
     0
330
1F
331
29
  0
MLINESTYLE
  5
18
102
{ACAD_REACTORS
330
17
102
}
330
17
100
AcDbMlineStyle
  2
Standard
 70
     0
  3

 62
   256
 51
90.0
 52
90.0
 71
     2
 49
0.5
 62
   256
  6
BYLAYER
 49
-0.5
 62
   256
  6
BYLAYER
  0
ACDBPLACEHOLDER
  5
F
102
{ACAD_REACTORS
330
E
102
}
330
E
  0
SCALE
  5
48
102
{ACAD_REACTORS
330
47
102
}
330
47
100
AcDbScale
 70
     0
300
1:1
140
1.0
141
1.0
290
     1
  0
SCALE
  5
49
102
{ACAD_REACTORS
330
47
102
}
330
47
100
AcDbScale
 70
     0
300
1:2
140
1.0
141
2.0
290
     0
  0
SCALE
  5
4A
102
{ACAD_REACTORS
330
47
102
}
330
47
100
AcDbScale
 70
     0
300
1:4
140
1.0
141
4.0
290
     0
  0
SCALE
  5
4B
102
{ACAD_REACTORS
330
47
102
}
330
47
100
AcDbScale
 70
     0
300
1:5
140
1.0
141
5.0
290
     0
  0
SCALE
  5
4C
102
{ACAD_REACTORS
330
47
102
}
330
47
100
AcDbScale
 70
     0
300
1:8
140
1.0
141
8.0
290
     0
  0
SCALE
  5
4D
102
{ACAD_REACTORS
330
47
102
}
330
47
100
AcDbScale
 70
     0
300
1:10
140
1.0
141
10.0
290
     0
  0
SCALE
  5
4E
102
{ACAD_REACTORS
330
47
102
}
330
47
100
AcDbScale
 70
     0
300
1:16
140
1.0
141
16.0
290
     0
  0
SCALE
  5
4F
102
{ACAD_REACTORS
330
47
102
}
330
47
100
AcDbScale
 70
     0
300
1:20
140
1.0
141
20.0
290
     0
  0
SCALE
  5
50
102
{ACAD_REACTORS
330
47
102
}
330
47
100
AcDbScale
 70
     0
300
1:30
140
1.0
141
30.0
290
     0
  0
SCALE
  5
51
102
{ACAD_REACTORS
330
47
102
}
330
47
100
AcDbScale
 70
     0
300
1:40
140
1.0
141
40.0
290
     0
  0
SCALE
  5
52
102
{ACAD_REACTORS
330
47
102
}
330
47
100
AcDbScale
 70
     0
300
1:50
140
1.0
141
50.0
290
     0
  0
SCALE
  5
53
102
{ACAD_REACTORS
330
47
102
}
330
47
100
AcDbScale
 70
     0
300
1:100
140
1.0
141
100.0
290
     0
  0
SCALE
  5
54
102
{ACAD_REACTORS
330
47
102
}
330
47
100
AcDbScale
 70
     0
300
2:1
140
2.0
141
1.0
290
     0
  0
SCALE
  5
55
102
{ACAD_REACTORS
330
47
102
}
330
47
100
AcDbScale
 70
     0
300
4:1
140
4.0
141
1.0
290
     0
  0
SCALE
  5
56
102
{ACAD_REACTORS
330
47
102
}
330
47
100
AcDbScale
 70
     0
300
8:1
140
8.0
141
1.0
290
     0
  0
SCALE
  5
57
102
{ACAD_REACTORS
330
47
102
}
330
47
100
AcDbScale
 70
     0
300
10:1
140
10.0
141
1.0
290
     0
  0
SCALE
  5
58
102
{ACAD_REACTORS
330
47
102
}
330
47
100
AcDbScale
 70
     0
300
100:1
140
100.0
141
1.0
290
     0
  0
SCALE
  5
59
102
{ACAD_REACTORS
330
47
102
}
330
47
100
AcDbScale
 70
     0
300
1/128" = 1'-0"
140
0.0078125
141
12.0
290
     0
  0
SCALE
  5
5A
102
{ACAD_REACTORS
330
47
102
}
330
47
100
AcDbScale
 70
     0
300
1/64" = 1'-0"
140
0.015625
141
12.0
290
     0
  0
SCALE
  5
5B
102
{ACAD_REACTORS
330
47
102
}
330
47
100
AcDbScale
 70
     0
300
1/32" = 1'-0"
140
0.03125
141
12.0
290
     0
  0
SCALE
  5
5C
102
{ACAD_REACTORS
330
47
102
}
330
47
100
AcDbScale
 70
     0
300
1/16" = 1'-0"
140
0.0625
141
12.0
290
     0
  0
SCALE
  5
5D
102
{ACAD_REACTORS
330
47
102
}
330
47
100
AcDbScale
 70
     0
300
3/32" = 1'-0"
140
0.09375
141
12.0
290
     0
  0
SCALE
  5
5E
102
{ACAD_REACTORS
330
47
102
}
330
47
100
AcDbScale
 70
     0
300
1/8" = 1'-0"
140
0.125
141
12.0
290
     0
  0
SCALE
  5
5F
102
{ACAD_REACTORS
330
47
102
}
330
47
100
AcDbScale
 70
     0
300
3/16" = 1'-0"
140
0.1875
141
12.0
290
     0
  0
SCALE
  5
60
102
{ACAD_REACTORS
330
47
102
}
330
47
100
AcDbScale
 70
     0
300
1/4" = 1'-0"
140
0.25
141
12.0
290
     0
  0
SCALE
  5
61
102
{ACAD_REACTORS
330
47
102
}
330
47
100
AcDbScale
 70
     0
300
3/8" = 1'-0"
140
0.375
141
12.0
290
     0
  0
SCALE
  5
62
102
{ACAD_REACTORS
330
47
102
}
330
47
100
AcDbScale
 70
     0
300
1/2" = 1'-0"
140
0.5
141
12.0
290
     0
  0
SCALE
  5
63
102
{ACAD_REACTORS
330
47
102
}
330
47
100
AcDbScale
 70
     0
300
3/4" = 1'-0"
140
0.75
141
12.0
290
     0
  0
SCALE
  5
64
102
{ACAD_REACTORS
330
47
102
}
330
47
100
AcDbScale
 70
     0
300
1" = 1'-0"
140
1.0
141
12.0
290
     0
  0
SCALE
  5
65
102
{ACAD_REACTORS
330
47
102
}
330
47
100
AcDbScale
 70
     0
300
1-1/2" = 1'-0"
140
1.5
141
12.0
290
     0
  0
SCALE
  5
66
102
{ACAD_REACTORS
330
47
102
}
330
47
100
AcDbScale
 70
     0
300
3" = 1'-0"
140
3.0
141
12.0
290
     0
  0
SCALE
  5
67
102
{ACAD_REACTORS
330
47
102
}
330
47
100
AcDbScale
 70
     0
300
6" = 1'-0"
140
6.0
141
12.0
290
     0
  0
SCALE
  5
68
102
{ACAD_REACTORS
330
47
102
}
330
47
100
AcDbScale
 70
     0
300
1'-0" = 1'-0"
140
12.0
141
12.0
290
     0
  0
ENDSEC
  0
EOF
